Info: Ako imate neke nejasnoće, pitanja, primjedbe, sugestije,..i dr. u vezi ovog podforuma javite se privatnom porukom moderatoru


FORUM : Muški minder : GITARA
Strana: 1 2 3 4 5 6 7 8 9 10 11 12 13 ... Last Page >>
New Topic Post Reply
Pošiljalac Poruka
Inspektor
Nivo: Forumski doajen
Novus Ordo Seclorum

Registriran(a): 21-06-2005
Odgovori: 9543
IP: Maskiran


View Profile Send Email to User Send Private Mesage to User
icon Re: GITARA

Djevojcice, djevojke, zene - dring, dring... (nije offtopic titami )

21-02-2012 at 21:35 | Uključi u odgovor
primus inter pares
Nivo: Forumski doajen
Registriran(a): 31-01-2008
Odgovori: 20460
IP: Maskiran


View Profile Send Email to User Send Private Mesage to User
icon Re: Re: GITARA

citat:
Inspektor wrote:
Djevojcice, djevojke, zene - dring, dring... (nije offtopic titami )


ohoo,velis more,plaza,kruzok,vincek..more more

Em H7 Em
Djevojcice, djevojke, zene,
Am H7 Em
nocas pjevam za vas zaljubljene
Am
znate i vi refren stari,
Em
sto su smislili mornari,
H7 Em
dok su sirom svijeta cure ganjali

Em H7
daj, daj mi to
Am Em
sto si godinama cuvala,
Am Em
za svog nekog frajera,
H7 Em
koji nije mogao da saceka


a sam vec odavno sve dugove izmirio
sve cehove poplacao i gubiti naucio

za koga si volim te karminom napisala
i reci cemu haljina
kad paklena je vrucina
H7
kasno je za kajanja

Em
Nema, nema, nema vise vremena
Am Em
citav svijet pijan je,
H7 Em
hajde samo ljubi me


U julu si na moru,
a gdje si u decembru
kada snijeg sve prekrije
i kad mi treba topline
sad sam se vratio,
sve sam luke prosao
i znam, pocet cemo stariti
kad prestanemo ljubiti
kasno je za kajanja


22-02-2012 at 08:25 | Uključi u odgovor
primus inter pares
Nivo: Forumski doajen
Registriran(a): 31-01-2008
Odgovori: 20460
IP: Maskiran


View Profile Send Email to User Send Private Mesage to User
icon Re: GITARA



E1 E|--F--|-----|--G--|-----|--A--|-----|--H--|--C--|-----|--D--|-----|--E--|
H H|--C--|-----|--D--|-----|--E--|--F--|-----|--G--|-----|--A--|-----|--H--|
G G|-----|--A--|-----|--H--|--C--|-----|--D--|-----|--E--|--F--|-----|--G--|
D D|-----|--E--|--F--|-----|--G--|-----|--A--|-----|--H--|--C--|-----|--D--|
A A|-----|--H--|--C--|-----|--D--|-----|--E--|--F--|-----|--G--|-----|--A--|
E6 E|--F--|-----|--G--|-----|--A--|-----|--H--|--C--|-----|--D--|-----|--E--|

ocel moc ovo,skala am-c do 12 praga i sad redom,vjezbas dok se boje ne rastope




[Edited by primus inter pares on 22-02-2012 at 10:03 GMT]

22-02-2012 at 10:02 | Uključi u odgovor
primus inter pares
Nivo: Forumski doajen
Registriran(a): 31-01-2008
Odgovori: 20460
IP: Maskiran


View Profile Send Email to User Send Private Mesage to User
icon Re: GITARA

ove skale su dobre,iz vise razloga,vjezbanje pozicija,tonova,prsti se razgibaju,nema ako mislis virat svaki dan,beskonacno ponavljanje,practice makes perfect

E--------------------------------3-5-7-8-7-5----------------------------------------
H--------------------------3-5-6-------------8-6-5----------------------------------
G--------------------2-4-5-------------------------7-5-4----------------------------
D--------------2-3-5-------------------------------------7-5-3----------------------
A--------2-3-5-------------------------------------------------7-5-3-------------3--
E--1-3-5-------------------------------------------------------------7-5-3-3-5-7----

22-02-2012 at 10:09 | Uključi u odgovor
primus inter pares
Nivo: Forumski doajen
Registriran(a): 31-01-2008
Odgovori: 20460
IP: Maskiran


View Profile Send Email to User Send Private Mesage to User
icon Re: GITARA

e sad za vjezbanje ove am-c skale,nije losa ni ova,ustvari ovo je ko narucena od strane bajage

Am C G G
E||-----------------|-----------------|-----------------|------------------|
B||-------1---------|-------1---------|-------3---------|-------3----------|
G||-----2-----2-----|-----0-----0-----|-----------0-----|-----------0------|
D||---2---------2---|---2---------2---|-----0-------0---|-----0-------0----|
A||-0-------------0-|-3-------------0-|---2-----------0-|---2-----------0--|
E||-----------------|-----------------|-3---------------|-3----------------|

Mrak se skupio u kap
Rano jutro kao slap
Ulazi u sobu

Dal' si ikad pitala
Tamne senke zidova
Ujutro gdje odu

Oci su ti sklopljene
Usne su ti umorne
Ne ljubi me njima

Nisu cvorci pjevali
Dok' je iznad krovova
Svirala tisina

Hajde Boze budi drug
Pa okreni jedan krug
Unazad planetu

Noc je kratko trajala
A nama je trebala
Najduza na svijetu

U mom oku samo hlad
U mom srcu samo stud
Inje i prasina

Nisu cvorci pevali
Dok je iznad krovova
Svirala tisina
Solo:

Prvi i drugi solo su isti:
|--------------------------------|--------------------------------------------|
|--------------------------------|------------------------8/10-8-10-8-10-10--|
|-----4-5--4-5--7/9--7~----------|-----4-5--4-5--7/9--7~----------------------|
|-5-7--------------------9-7-5~--|-5-7----------------------------------------|
|--------------------------------|--------------------------------------------|
|--------------------------------|--------------------------------------------|

|--------------------------------|--------------------------------------------|
|--------------------------------|-8/10--8------8-----------------------------|
|-----4-5--4-5--7/9--7~----------|----------7/9---97--5-4--------------------|
|-5-7--------------------9-7-5~--|-------------------------7-5~---5-7~~~~-----|
|--------------------------------|--------------------------------------------|
|--------------------------------|--------------------------------------------|
U cik zore zviždi voz
Njime odlazim u Oz
Necu da se vratim

Sto god tebi napisem
Pocepam i obrisem
Al' ti moras znati

Nisi se probudela
Zato nisi videla
Igrale su sene

Nek' te dobri drugovi
i kraljevski orlovi
cuvaju od mene.

Treci solo:
|----------------------------------------8-7----8-7----8-7----------
|-8/10--8------8----------------8/10--8------8------8------8-8-8/10-
|----------7/9---97--5-4-------------------------------------------
|-------------------------7-5~--------------------------------------
|-------------------------------------------------------------------
|-----------------------------------------------------------------

znaĆi...Am,C,G,G...
prvi dio znaci ide razlozeno,ton po ton.
a onda ide rendanje Am,C,G,G,G pa sola,to je bal lako,probat..ito skala ..
eh et,vjezica,sam taka,a ispadne na kraju jos i pjesma

22-02-2012 at 10:24 | Uključi u odgovor
primus inter pares
Nivo: Forumski doajen
Registriran(a): 31-01-2008
Odgovori: 20460
IP: Maskiran


View Profile Send Email to User Send Private Mesage to User
icon Re: GITARA

Am C G Am C G Am C G
---------------------------------------------------5---5---5-5~-12^-10--10-------------------
--------------5--------------------------------5-----8---8------------12--12-10--------------
------4-5---5---7-4-----4--------------4-5---5---7------------------------------12-11-9------
--5-7-----7---------7-5---7-5-7----5-7-----7-------------------------------------------------
---------------------------------------------------------------------------------------------
---------------------------------------------------------------------------------------------

ili sola sa malo improvizacije...

22-02-2012 at 10:29 | Uključi u odgovor
primus inter pares
Nivo: Forumski doajen
Registriran(a): 31-01-2008
Odgovori: 20460
IP: Maskiran


View Profile Send Email to User Send Private Mesage to User
icon Re: GITARA

u sustini sve sto radim ja,prenosim i ovde,ovo je sve vjezba...
ja bi volio kad bi neko nesto dopunio, ispravio,ukazo na bolje,lakse,jednostavnije,ispravnije,al kako je sve na ovom forumu polumrtvo,osim kad se jebu majkare i sojke,nema veze,nastavljam,kodaj blog
od srca..mozda neko i proba
kolko god izgledalo,tesko i zapetljano,nije uopste,samo kad se krene,i odgovor na pitanje jel kasno,nikad nije kasno za pocet...
ja sad svaki sekund slobodnog vremena,odvajam za gitaru,a jebiga stignem i sve ostalo,znaci kad se hoce moze se...

[Edited by primus inter pares on 22-02-2012 at 10:34 GMT]

22-02-2012 at 10:32 | Uključi u odgovor
primus inter pares
Nivo: Forumski doajen
Registriran(a): 31-01-2008
Odgovori: 20460
IP: Maskiran


View Profile Send Email to User Send Private Mesage to User
icon Re: GITARA

Inace zanimljivo da je jedan od prvih ljudi ,koji je pisao tablature nakav Franjo iz Bosne,zanimljivo haha (Franciscus Bossinensis)
tamo negdje u 16 vijeku...
uvijek smo imali konja za utraku,sho jes jes...

22-02-2012 at 10:40 | Uključi u odgovor
Abulafija
Nivo: Moderator podforuma

Registriran(a): 02-07-2004
Odgovori: 28828
IP: Maskiran


View Profile Send Email to User Send Private Mesage to User
icon Re: GITARA

Ja bi tako rado dopunio, medjutim, od svih instrumenata ja uz njeznik najbolje sviram.
Al vidim, dobro ti to.
Nego ne bilo te zapovidjeno, kameru pred sebe, pa ti ovo nama u praksi pokazi, ja u ovo tvoje mogu buljiti ko .........

22-02-2012 at 10:40 | Uključi u odgovor
primus inter pares
Nivo: Forumski doajen
Registriran(a): 31-01-2008
Odgovori: 20460
IP: Maskiran


View Profile Send Email to User Send Private Mesage to User
icon Re: GITARA

ma i ja lafe ucim,nedovoljno za koncerta,al se trudim,i ovo sto napisem to znam..
zato kajem,mora bit neko skolovaniji,upuceniji,da i meni neke stvari pojasni,ha ja..a sto se tice klipova,youtube i fb,tu ja ne zalazim sa svojim loginima hahahah
smao uzivo brale

22-02-2012 at 10:42 | Uključi u odgovor
Trenutno aktivni korisnici
Aktivni gosti: 12
Skriveni clanovi: 0
Aktivni članovi: 0
Sretan rođendan: bibi, DinoMramor, I STA CEMO SAD, maca83, panda
FORUM : Muški minder : GITARA New Topic Post Reply

Strana: 1 2 3 4 5 6 7 8 9 10 11 12 13 ... Last Page >>


Niste logirani? Nadimak / Username: Password: Sakrij mi ime
Zaboravili ste password?




Pregled tema u posljednjih 24 sata
Pregled poruka u posljednjih 24 sata
(dva dana, sedam, 30 dana)

Pregled pisanja forumaša u posljednjih 24 sata

Skokni do foruma:

Kontaktiraj nas | tuzlarije.net

Powered by: STRING FORUM Version 1.0
Copyright © 2001 STRING